SBV

;

Fotos Igreja

sábado, 22 de agosto de 2009

Aula de Violão 6

Capítulo 16:Técnicas
*Trinados (Trill)
É um tipo de ligadura que envolve uma combinação de Hammer-ons e Pull-ofs em sequência. Os trinados são classifaicados em simples e compostos podendo ser de curta ou de longa distância.

Trinado simples

O exemplo abaixo contém 3 trinados simples de curta distância.

        trill    trill      trill   
e:|--5h8p5----8h10p8----10h12p10----------|
B:|-------------------------------13--10--------|
G:|----------------------------------------------|
D:|----------------------------------------------|
A:|----------------------------------------------|
E:|----------------------------------------------|

Di:  1 4 1    1 3 1      1  3  1   4   1



O trinado simples contém somente uma nota solta, no exemplo acima os trinados são classicados como de curta distância, por que são executados somente com a mão esquerda. Note que neste caso não foi mostrado a quantidade de vezes que foi executado cada trinado, como no exemplo abaixo, outro trinado simples a curta distância:

           Trill
e:|--5h7p5h7p5h7---/9--7p5---5-------------|
B:|------------------------7---------------------|
G:|----------------------------------------------|
D:|----------------------------------------------|
A:|----------------------------------------------|
E:|----------------------------------------------|

Di:     1 3 1 3 1 3    3  3 1 3 1


No próximo exemplo uma situação comun, um trinado simples usando uma nota obtida em uma corda solta:

           Tr ~~~~~~
e:|------------------------------------------------|
B:|------------------------------------------------|
G:|------------------------------------------------|
D:|------------------2-----------------------------|
A:|-----0-(2)--------------------------------------|
E:|--0----------------------------------------------|

Di:        3         3 


Obs.: Nos trinados a curta distância somente a primeira nota será ferida com a paleta, as outras serão obtidas através das ligaduras (Hammer-ons e Pull-ofs) usando somente os dedos da mão esquerda.


Representação

Como exempilficado acima os trinados sempre estão contidos em sequências de ligaduras que podem vir acompanhadas da palavra "Trill" ou do símbolo "Tr ~~~~ ".


Trinado composto

É o trinado que contém mais de uma nota solta:


        Tr ~~~~  Tr ~~~~
e:|--8p7p5----10p8p7----10h12-8h10--7h8p7--5---------|
B:|--------------------------------------------------|
G:|--------------------------------------------------|
D:|--------------------------------------------------|
A:|--------------------------------------------------|
E:|--------------------------------------------------|

Di:  4 3 1    4 2 1     1  3  1 3   1 2 1  1

Obs.:
  • Os trinados simples são repetições de ligaduras entre duas notas;
  • Os trinados compostos são repetições de ligaduras entre três ou mais notas;

Trinado à longa distância (Two Hands)

Técnica também conhecida como "Two Hands" utiliza-se as duas digitações. Utilizar duas digitações significa tocar a escala no braço do intrumento com a mão esquerda e direita.

Abaixo temos um exemplo onde a nota indicada por "T" (Tap) e um "martelado" com o dedo médio da mão direita. A sequências de trinado abaixo são todas compostas, possuem três notas ligadas.

        T           T          T          T         T           
e:|-12-_2h3p2---10-_2h3p2---9-_2h3p2---7-_2h3p2--5-_2h3p2-----|
B:|----------------------------------------------------------- |
G:|-----------------------------------------------------------|
D:|-----------------------------------------------------------|
A:|-----------------------------------------------------------|
E:|-----------------------------------------------------------|

Di: (2) 1 2 1   (2) 1 2 1  (2) 1 2 1  (2) 1 2 1  (2) 1 2 1



Execução

Note que as notas marteladas são pull-ofs executados a longa distância, uma nota na 12ª casa e a outra na 2ª. Para executar o martelado, martele a nota é realize uma puxada soltando a nota fazendo-a soar, semelhante ao pull-of.


Representação

Além do símbolo "T" temos também na linha (Di) digitação da mão esquerda, a indicação (2) do dedo médio da mão direita (martelada).

Neste outro exemplo temos vários trinados compostos a longa distância, os três primeiros são executados 4 vezes cada:

        ___4x___      ___4x___     ___4x___
T             T            T              
e:|--15p5h7p5-------------------15p5h7p5-------------|
B:|----------------15p5h7p5-----------------------------|
G:|--------------------------------------------------------|
D:|--------------------------------------------------------|
A:|--------------------------------------------------------|
E:|--------------------------------------------------------|

Di: (2) 1 3 1     (2) 1 3 1    (2) 1 3 1


T          T          T          T          T      
e:|--13p5h7p5---15p5h7p5---17p5h7p5---18p5h7p5---20p5h7p5--|
B:|--------------------------------------------------------|
G:|--------------------------------------------------------|
D:|--------------------------------------------------------|
A:|--------------------------------------------------------|
E:|--------------------------------------------------------|

Di: (2) 1 3 1  (2) 1 3 1  (2) 1 3 1  (2) 1 3 1  (2) 1 3 1


Lick de exemplo

Lick construido sobre uma escala pentatônica, observe a utilização dos hammer-ons, pull-ofs e trinados.



  e:|---8-5----5-------------------------------------------------- -|
B:|-------8----8--5--8--5-----5---------------------------------|
G:|------------------------7-----7--5h7p5---5------------------|
D:|---------------------------------------7-----5h7p5----5-----|
A:|----------------------------------------------------7--------- |
E:|-------------------------------------------------------------- |

Di:   4 1 4  1 4  1  4  1  3  1  3  1 3 1 3 1   1 3 1  3 1


Tr ~~~~
e:|----------------------------------------5----5h8p5---------|
B:|------------------------------5----5--8---8-----------------|
G:|-------------------5----5--7----7---------------------------|
D:|--------5----5--7----7--------------------------------------|
A:|--(5)/7---7------------------------------------------------- |
E:|------------------------------------------------------------  |

Di:      3 1 3  1  3  1 3  1  3  1 3  1  4 1 4  1 4 1



e:|---8/-10h8-------------------------------------------------|
B:|-----------10--8h10p8------8-10~------------------------|
G:|-----------------------9b-----------------------------------|
D:|------------------------------------------------------------|
A:|------------------------------------------------------------|
E:|------------------------------------------------------------|

Di:   4  4  2  4  2 4  2  3   2  4

Seja o primeiro a comentar

:)) ;)) ;;) :D ;) :p :(( :) :( :X =(( :-o :-/ :-* :| 8-} :)] ~x( :-t b-( :-L x( =))

Postar um comentário

Novo Comentário

Related Posts Plugin for WordPress, Blogger...

  ©Template by Dicas Blogger.

TOPO