SBV

;

Fotos Igreja

sábado, 22 de agosto de 2009

Aula de Violão 5

Capítulo 16:Técnicas
* Ligaduras (Legato)

É a ligação de som que aparece entre uma nota fixa e uma nota solta. Também conhecida como legato, é uma técnica amplamente empregada em aranjos e solos. Existem basicamente dois tipos de ligaduras: uma ascendente e outra descendente, conhecidas respectivamente como Hammer-on e Pull-of.


Hammer-on (h)

Consiste basicamente em tocar uma nota e fazer a outra soar sem auxílio da mão direita. A nota ligada será martelada com um dedo da mão esquerda. Esta nota que vai soar depois da primeira, vai estar sempre na mesma corda é em qualquer uma casa acima (ligadura ascendente).

Abaixo temos um exemplo de aplicação de hammer-ons feito sobre uma escala pentatônica.

   e:|--------------------8h10--12----------------|
B:|--------------8h10---------------------------|
G:|---------7h9---------------------------------|
D:|---7h10--------------------------------------|
A:|-----------------------------------------------|
E:|-----------------------------------------------|

Di:   1 4   1 3  2  4  2  4   4

Execução

Para executar o trecho acima, siga a digitação da mão esquerda representada por "Di". Toque a nota da corda (D) 7ª casa com o dedo 1, a nota da 10ª casa será obtida através de uma martelada com o dedo 4. A martelada deve ser feita sem soltar o dedo 1 da 7ª casa. Depois temos uma ligadura na corda (G) 7ª casa ligada com a 9ª casa, a martelada agora é feita com
o dedo 3. As outras ligaduras serão executadas da mesma forma.


Representação

Na tablatura acima temos quatro ligaduras do tipo "Hammer-on", representadas pela letra "h". Note que o primeiro número antes do "h" é sempre inferior ao segundo (ligadura para cima).

Em outras formas de representação em tablaturas, encontraremos as ligaduras representadas pelo símbolo (_) entre dois ou mais números. Neste formato não temos indicado o tipo de ligadura (hammer-on ou pull-of).

Abaixo temos outro exemplo de aplicação de hammer-ons feito sobre a escala maior de G.

   e:|--10_12--8_10--7_8--5_7--3_5--2_3_2_0--|
B:|-------------------------------------------------|
G:|-------------------------------------------------|
D:|-------------------------------------------------|
A:|-------------------------------------------------|
E:|-------------------------------------------------|

Di:   1  3  1  3  1 2  1 3  1 3  1 2 1

Analisando o exemplo acima, nota-se no trecho final (2_3_2_0) um conjunto de ligaduras, onde (3_2_0) são descendentes (Pull-of).


Pull-of (p)

Pull-off é de certa forma o inverso de um hammer-on, consistem em soltar rapidamente uma nota fazendo com que a mesma soe solta ou apertada em um traste anterior, sem auxílio da mão direita. Esta nota que vai soar solta, vai estar sempre na mesma corda é em qualquer uma casa abaixo (ligadura descendente).

Neste exemplo temos a aplicação de pull-ofs feito sobre uma escala pentatônica.

   e:|---10p8--------------------------------------|
B:|--------10p8---------------------------------|
G:|-------------9p7------7----------------------|
D:|------------------10--------------------------|
A:|-----------------------------------------------|
E:|-----------------------------------------------|

Di:   4 2  4 2  3 1  4   1


Execução

Para executar o trecho acima siga a digitação da mão esquerda representada por "Di". Para executar (10p8) o dedo 2 da mão esquerda deve estar posicionado na 8ª casa, toque a nota da corda (e) 10ª casa (pressionada pelo dedo 4) é puxe soltando a nota com o mesmo dedo. O importante é sempre estar com o dedo da nota anterior posicionado.


Representação
Na tablatura acima temos três ligaduras do tipo "Pull-of", representadas pela letra "p". Note que o número antes do "p" é sempre superior (ligadura para baixo).

No próximo exemplo temos a aplicação de pull-ons feito sobre a escala maior de G.

   e:|--12_10--10_8--8_7--7_5--5_3--3_2_0-----|
B:|-------------------------------------------------|
G:|-------------------------------------------------|
D:|-------------------------------------------------|
A:|-------------------------------------------------|
E:|-------------------------------------------------|

Di:  3  1   3  1  2 1  3 1  3 1  2 1

Obs.:
No início é difícil conseguir um som satisfatório das notas marteladas ou puxadas, a técnica de ligaduras exige um bom instrumento, agilidade e treinamento.


Lick de exemploNo exemplo abaixo temos a aplicação de hammer-ons e pull-ofs em uma escala de D maior (desenvolvimento do Ag2 no 5º Tr. dedo 2 na 5ª corda).

        Ag3                                         Ag2

e:|--7h9p7-10--9-7----7-----------------------------------------|
B:|----------------10---10-8-7h8p7---7-------------------------|
G:|--------------------------------9-----9-7h9p7-/6~-----------|
D:|----------------------------------------------------------------|
A:|----------------------------------------------------------------|
E:|----------------------------------------------------------------|

Di:  1 3 1 4  3 1  4 1  4  2 1 2 1 3 1   3 1 3 1 1


Ag2

e:|---------------------------------------------------------------|
B:|---------------------------------------------------------------|
G:|--6h7p6-9--7-6---6-----------------------------------------|
D:|---------------9-----9-7h9p7-/5--5h7p5-4~---------------|
A:|---------------------------------------------------------------|
E:|---------------------------------------------------------------|

Di:  1 2 1 4  2 1 4 1   4 2 4 2  2  2 4 2 1

Seja o primeiro a comentar

:)) ;)) ;;) :D ;) :p :(( :) :( :X =(( :-o :-/ :-* :| 8-} :)] ~x( :-t b-( :-L x( =))

Postar um comentário

Novo Comentário

Related Posts Plugin for WordPress, Blogger...

  ©Template by Dicas Blogger.

TOPO