SBV

;

Fotos Igreja

segunda-feira, 31 de agosto de 2009

Aula de Baixo 5

Capítulo 5: Exércicios Técnicos
Neste capítulos colocamos alguns exercícios que irão te ajudar tecnicamente falando. São técnicas psicomotaras, de aquecimento, improvisação de agilidade nos dedos. Confira abaixo:
  • Psicomotor
Esses exercícios melhoram, e bastante, a parte Psicomotora.
Assim como os demais, deve ser feito bem devagar e ir aumentando a velocidade.

Psicomotor 1--------------------------------------------4---3---2-----------------------------------------------------------
-------------------------------1---2---3-----------------1---2---3---------------------------------------------
-----------------4---3---2----------------------------------------------4---3---2------------------------------
--1---2---3---------------------------------------------------------------------------1---2---3---4-----------


Psicomotor 21---2---------------------------------------------------------3---4---1---2-----------------------------
--------3---4---------------------------------------1---2------------------------------------------------
----------------1---2-----------------------3---4--------------------------------------------------------
-------------------------3---4---1---2-------------------------------------------------------------------


Movimentação-------------------------------------------------------------4---5---6---7--------------------
-----------------------------------------3---4---5---6----------------------------------------
----------------------2---3---4---5-----------------------------------------------------------
1---2---3---4---------------------------------------------------------------------------------

Obs: Ao terminar a escala, fazer o mesmo exercício decrescente
Escada de Braço1---------------------------------8-----7------------------------1----------------------------
----2-----------------------7----------------6---------------2--------------------------------
--------3-------------6--------------------------5-------3------------------------------------
------------4----5-----------------------------------4----------------------------------------



  • Exercícios para aquecimento e maior agilidade dos dedos.
    Aconselho que se faça esses exercícios durante 15 dias, uma hora por dia. O resultado é muito bom. Depois dos 15 dias os dedos vão deslizar no braço.
    Deve ser feito bem devagar e ir aumentando a velocidade. De preferência, use um metrônomo.


    --------------------------------------------------------------1---2---3---4-------------------------------------------
    ------------------------------------------1---2---3---4-------------------------1---2---3---4---------------------
    ----------------------1---2---3---4-----------------------------------------------------------------1---2---3---4---
    --1---2---3---4-----------------------------------------------------------------------------------1---2---3---4-----


  • Arpegio
As notas que formam o arpegio são as mesmas que formam os Acordes.
Os acordes são usados geralmente na parte de acompanhamento para guitarra ou violão e a diferença é que as notas que formam os acordes são tocadas simultaneamente, todas ao mesmo tempo.
Treinem bastante esses exercícios, pois eles são fundamentais na parte de acompanhamento com o Baixo.

Arpegio de C
G||-------------------------|--9----12p---9----------|-------------------||
D||-------------------10----|------------------10----|-------------------||
A||-------------10----------|------------------------|--10---------------||
E||--8----12----------------|------------------------|--------12----8----||

Arpegio de Cm
G||-------------------------|--8----12p---8----------|--------------------||
D||-------------------10----|------------------10----|--------------------||
A||-------------10----------|------------------------|--10----------------||
E||--8----11----------------|------------------------|--------11----8-----||

Arpegio C7M
G||-----------------------|--------9---------------|----------------------||
D||------------------9----|--10---------10----9----|----------------------||
A||-------7----10---------|------------------------|--10----7-------------||
E||--8--------------------|------------------------|-------------8--------||

Arpegio de C7
G||-----------------------|--------9---------------|----------------------||
D||------------------8----|--10---------10----8----|----------------------||
A||-------7----10---------|------------------------|--10----7-------------||
E||--8--------------------|------------------------|-------------8--------||

Arpegio Cm7M
G||-----------------------|--------8---------------|----------------------||
D||------------------9----|--10---------10----9----|----------------------||
A||-------6----10---------|------------------------|--10----6-------------||
E||--8--------------------|------------------------|-------------8--------||

Arpegio de Cm7
G||-----------------------|--------8---------------|----------------------||
D||------------------8----|--10---------10----8----|----------------------||
A||-------6----10---------|------------------------|--10----6-------------||
E||--8--------------------|------------------------|-------------8--------||

Arpegio de C7M
G||-----------------4----|--5----4--------------|-------------------||
D||-------2----5---------|------------5----2----|-------------------||
A||--3-------------------|----------------------|--3----------------||
E||----------------------|----------------------|-------------------||

Arpegio de C7
G||-----------------3----|--5----3--------------|-------------------||
D||-------2----5---------|------------5----2----|-------------------||
A||--3-------------------|----------------------|--3----------------||
E||----------------------|----------------------|-------------------||

Arpegio de Cm7M
G||-----------------4----|--5----4--------------|-------------------||
D||-------1----5---------|------------5----1----|-------------------||
A||--3-------------------|----------------------|--3----------------||
E||----------------------|----------------------|-------------------||

Arpegio de Cm7
G||-----------------3----|--5----3--------------|-------------------||
D||-------1---5-------- -|------------5----1----|-------------------||
A||--3-------------------|----------------------|--3----------------||
E||----------------------|----------------------|-------------------||

Arpegio de G
G||----------------------|--4----7p---4---------|---------------------||
D||-----------------5----|-----------------5----|---------------------||
A||-------2----5---------|----------------------|--5----2-------------||
E||--3-------------------|----------------------|------------3--------||

Arpegio de Gm
G||----------------------|--3----7p---3---------|---------------------||
D||-----------------5----|-----------------5----|---------------------||
A||-------1----5---------|----------------------|--5----1-------------||
E||--3-------------------|----------------------|------------3--------||

Arpegio de Cdim
G||----------------------|----------------------|----------------------|
D||----------------------|------------4---------|--4----7----4----7----|
A||--3---------3----6----|--3----6---------6----|----------------------|
E||-------5--------------|----------------------|----------------------|

--5----5--------------|----------------------|----------------------|
------------7----4----|--7----4---------4----|----------------------|
----------------------|------------6---------|--6----3----6----3----|
----------------------|----------------------|----------------------|

--------------------||
--------------------||
-------3~-----------||
--5-----------------||

Arpegio de E
G||----------------------|--1----4p---1---------|---------------------||
D||-----------------2----|-----------------2----|---------------------||
A||------------2---------|----------------------|--2------------------||
E||--0----4--------------|----------------------|-------4----0--------||

Seqüência de Arpegios em Am
G||----------------------|--5----9p---5---------|------------7----12p---|
D||-----------------7----|-----------------7----|-------9---------------|
A||-------3----7---------|----------------------|--7--------------------|
E||--5-------------------|----------------------|-----------------------|

--7---------------------|--9----12p---9----------|--------------10----14p---|
-------9----------10----|------------------10----|--------12----------------|
------------10----------|------------------------|--10----------------------|
------------------------|------------------------|--------------------------|

--10----------------------|--------------------------|
--------12----------------|--------------------------|
--------------12----------|--------------11----14----|
--------------------13----|--10----12----------------|

--------------------13----|--------------------------|------------------------|
--12----13----14----------|--14----13----12----------|------------------------|
--------------------------|--------------------14----|--11---------------3----|
--------------------------|--------------------------|--------12----5---------|

-------2----5----4----|--2---------2---------|----------------------|
--2-------------------|-------3---------3----|--2-------------------|
----------------------|----------------------|-------5----3----2----|
----------------------|----------------------|----------------------|

----------------------|------------5----9p---|--5-------------------|
----------------------|-------7--------------|-------7--------------|
----------------------|--7-------------------|------------7---------|
--5----0----5----8----|----------------------|-----------------8----|

---------------------||
---------------------||
---------------------||
--5----0----5~-------||


Seqüência de Arpegios em Dm
G||--14p---10----------10----|--14p---10----------10----|
D||--------------12----------|--------------12----------|
A||--------------------------|--------------------------|
E||--------------------------|--------------------------|

--14p---10----------10----|--14p---10----------10----|--12p---9----------9----|
--------------12----------|--------------12----------|-------------11---------|
--------------------------|--------------------------|------------------------|
--------------------------|--------------------------|------------------------|

--12p---9----------9----|--12p---9----------9----|--12p---9----------9----|
-------------11---------|-------------11---------|-------------11---------|
------------------------|------------------------|------------------------|
------------------------|------------------------|------------------------|

--14p---10----------10----|--14p---10----------10----|
--------------12----------|--------------12----------|
--------------------------|--------------------------|
--------------------------|--------------------------|

--14p---11----------10----|--14p---11----------10----|
--------------12----------|--------------12----------|
--------------------------|--------------------------|
--------------------------|--------------------------|

--15p---12----------12----|--15p---12----------12----|
--------------12----------|--------------12----------|
--------------------------|--------------------------|
--------------------------|--------------------------|

--14p---10----------10----|--14p---10----------12p---|--9----------9----12p---|
--------------12----------|--------------12----------|-------11---------------|
--------------------------|--------------------------|------------------------|
--------------------------|--------------------------|------------------------|

--9----------9----------|----------------------||
-------11---------12----|----------------------||
------------------------|--12------------------||
------------------------|--------10~-----------||


Seqüência de Arpegios em Em
G||--16----14----16----12----|--------------------------|
D||--------------------------|--14----------------------|
A||--------------------------|--------14----------------|
E||--------------------------|--------------15----12----|

--------------------12----|--16----14----16----14----|
--------------14----------|--------------------------|
--------14----------------|--------------------------|
--15----------------------|--------------------------|

--12----14----11----------|--------------------------|
--------------------12----|--------------------------|
--------------------------|--12----------------------|
--------------------------|--------14----10----14----|

--------------11----14----|--12----14----12----11----|--12----9----------------|
--------12----------------|--------------------------|-------------10----------|
--12----------------------|--------------------------|-------------------10----|
--------------------------|--------------------------|-------------------------|

-------------------------|--------9----12----11----|--12----11----9----11----|
-------------------------|--10---------------------|-------------------------|
-------------------10----|-------------------------|-------------------------|
--12----8----12----------|-------------------------|-------------------------|

--8--------------------|-----------------------|--8----11----9----11----|
-------9---------------|------------------9----|------------------------|
------------9----------|-------------9---------|------------------------|
-----------------11----|--7----11--------------|------------------------|

----------------------|------------4h---5p---|--4-------------------|
----------------------|-------5--------------|-------5--------------|
-----------------5----|--7-------------------|------------7----5----|
--0----3----7---------|----------------------|----------------------|

----------------------|---------------------||
----------------------|--2------------------||
-----------------2----|---------------------||
--7----3----0---------|-------0----0--------||


--------------------------------------------------------------1---2---4---3--------------------------------
------------------------------------------1---2---4---3---------------------1---2---4---3-----------------
----------------------1---2---4---3------------------------------------------------1---2---4---3----------
--1---2---4---3-----------------------------------------------------------------------1---2---4---3-----
-------------------------------------------------2---3---4---1---------------------------------------------
----------------------------2---3---4---1--------------------2---3---4---1-------------------------------
--------2---3---4---1-----------------------------------------------2---3---4---1-------------------------
--2---3---4---1-------------------------------------------------------------------------2---3---4---1-----
-------------------------------------------------3---4---2---1---------------------------------------------
----------------------------3---4---2---1-------------------------3---4---2---1---------------------------
--------3---4---2---1-----------------------------------------------3---4---2---1-------------------------
--3---4---2---1---------------------------------------------------------------------3---4---2---1-----
-------------------------------------------------4---3---2---1---------------------------------------------
----------------------------4---3---2---1-------------------------4---3---2---1---------------------------
--------4---3---2---1-----------------------------------------------4---3---2---1-------------------------
--4---3---2---1-------------------------------------------------------------------------------------------4---3---2---1-------------------------------------1---3---2---4-------------------------------------------
----------------------------1---3---2---4-------------------------1---3---2---4---------------------------
--------1---3---2---4-----------------------------------------------1---3---2---4-------------------------
--1---3---2---4------------------------------------------------------------------------1---3---2---4-----
-------------------------------------------------2---4---1---3---------------------------------------------
-------------------------2---4---1---3---------------------2---4---1---3----------------------------------
--------2---4---1---3-----------------------------------------------2---4---1---3-------------------------
---2---4---1---3------------------------------------------------------------------------2---4---1---3-----


Seja o primeiro a comentar

:)) ;)) ;;) :D ;) :p :(( :) :( :X =(( :-o :-/ :-* :| 8-} :)] ~x( :-t b-( :-L x( =))

Postar um comentário

Novo Comentário

Related Posts Plugin for WordPress, Blogger...

  ©Template by Dicas Blogger.

TOPO